  0
SECTION
  2
HEADER
  9
$ACADVER
  1
AC1015
  9
$ACADMAINTVER
 70
    14
  9
$DWGCODEPAGE
  3
ANSI_1252
  9
$INSBASE
 10
0.0
 20
0.0
 30
0.0
  9
$EXTMIN
 10
-0.7887038002796086
 20
-0.0000000000000053
 30
-0.0000000000012248
  9
$EXTMAX
 10
43.7712011011311
 20
11.61011904761893
 30
0.0000000000000805
  9
$LIMMIN
 10
0.0
 20
0.0
  9
$LIMMAX
 10
12.0
 20
9.0
  9
$ORTHOMODE
 70
     1
  9
$REGENMODE
 70
     1
  9
$FILLMODE
 70
     1
  9
$QTEXTMODE
 70
     0
  9
$MIRRTEXT
 70
     1
  9
$LTSCALE
 40
1.0
  9
$ATTMODE
 70
     1
  9
$TEXTSIZE
 40
0.2
  9
$TRACEWID
 40
0.05
  9
$TEXTSTYLE
  7
Standard
  9
$CLAYER
  8
0
  9
$CELTYPE
  6
ByLayer
  9
$CECOLOR
 62
   256
  9
$CELTSCALE
 40
1.0
  9
$DISPSILH
 70
     0
  9
$DIMSCALE
 40
1.0
  9
$DIMASZ
 40
0.1
  9
$DIMEXO
 40
0.05
  9
$DIMDLI
 40
0.5
  9
$DIMRND
 40
0.0
  9
$DIMDLE
 40
0.0
  9
$DIMEXE
 40
0.1
  9
$DIMTP
 40
0.1
  9
$DIMTM
 40
0.1
  9
$DIMTXT
 40
0.12
  9
$DIMCEN
 40
0.0
  9
$DIMTSZ
 40
0.0
  9
$DIMTOL
 70
     0
  9
$DIMLIM
 70
     0
  9
$DIMTIH
 70
     1
  9
$DIMTOH
 70
     1
  9
$DIMSE1
 70
     0
  9
$DIMSE2
 70
     0
  9
$DIMTAD
 70
     0
  9
$DIMZIN
 70
     7
  9
$DIMBLK
  1

  9
$DIMASO
 70
     1
  9
$DIMSHO
 70
     1
  9
$DIMPOST
  1

  9
$DIMAPOST
  1
mm
  9
$DIMALT
 70
     0
  9
$DIMALTD
 70
     2
  9
$DIMALTF
 40
25.4
  9
$DIMLFAC
 40
1.0
  9
$DIMTOFL
 70
     0
  9
$DIMTVP
 40
0.0
  9
$DIMTIX
 70
     0
  9
$DIMSOXD
 70
     0
  9
$DIMSAH
 70
     0
  9
$DIMBLK1
  1

  9
$DIMBLK2
  1

  9
$DIMSTYLE
  2
AM_ANSI
  9
$DIMCLRD
 70
     4
  9
$DIMCLRE
 70
     4
  9
$DIMCLRT
 70
   256
  9
$DIMTFAC
 40
0.71
  9
$DIMGAP
 40
0.06
  9
$DIMJUST
 70
     0
  9
$DIMSD1
 70
     0
  9
$DIMSD2
 70
     0
  9
$DIMTOLJ
 70
     1
  9
$DIMTZIN
 70
     7
  9
$DIMALTZ
 70
     0
  9
$DIMALTTZ
 70
     0
  9
$DIMUPT
 70
     0
  9
$DIMDEC
 70
     3
  9
$DIMTDEC
 70
     3
  9
$DIMALTU
 70
     2
  9
$DIMALTTD
 70
     2
  9
$DIMTXSTY
  7
ADESK1
  9
$DIMAUNIT
 70
     0
  9
$DIMADEC
 70
     1
  9
$DIMALTRND
 40
0.0
  9
$DIMAZIN
 70
     2
  9
$DIMDSEP
 70
    46
  9
$DIMATFIT
 70
     3
  9
$DIMFRAC
 70
     0
  9
$DIMLDRBLK
  1

  9
$DIMLUNIT
 70
     2
  9
$DIMLWD
 70
    -1
  9
$DIMLWE
 70
    -1
  9
$DIMTMOVE
 70
     0
  9
$LUNITS
 70
     2
  9
$LUPREC
 70
     8
  9
$SKETCHINC
 40
0.1
  9
$FILLETRAD
 40
0.0
  9
$AUNITS
 70
     0
  9
$AUPREC
 70
     8
  9
$MENU
  1
.
  9
$ELEVATION
 40
0.0
  9
$PELEVATION
 40
0.0
  9
$THICKNESS
 40
0.0
  9
$LIMCHECK
 70
     0
  9
$CHAMFERA
 40
0.5
  9
$CHAMFERB
 40
0.5
  9
$CHAMFERC
 40
1.0
  9
$CHAMFERD
 40
0.0
  9
$SKPOLY
 70
     0
  9
$TDCREATE
 40
2452331.344913958
  9
$TDUCREATE
 40
2452331.636580625
  9
$TDUPDATE
 40
2452522.524264340
  9
$TDUUPDATE
 40
2452522.815931006
  9
$TDINDWG
 40
0.0514638426
  9
$TDUSRTIMER
 40
0.0514638426
  9
$USRTIMER
 70
     1
  9
$ANGBASE
 50
0.0
  9
$ANGDIR
 70
     0
  9
$PDMODE
 70
     0
  9
$PDSIZE
 40
0.0
  9
$PLINEWID
 40
0.0
  9
$SPLFRAME
 70
     0
  9
$SPLINETYPE
 70
     6
  9
$SPLINESEGS
 70
     8
  9
$HANDSEED
  5
1376
  9
$SURFTAB1
 70
     6
  9
$SURFTAB2
 70
     6
  9
$SURFTYPE
 70
     6
  9
$SURFU
 70
     6
  9
$SURFV
 70
     6
  9
$UCSBASE
  2

  9
$UCSNAME
  2

  9
$UCSORG
 10
0.0
 20
0.0
 30
0.0
  9
$UCSXDIR
 10
1.0
 20
0.0
 30
0.0
  9
$UCSYDIR
 10
0.0
 20
1.0
 30
0.0
  9
$UCSORTHOREF
  2

  9
$UCSORTHOVIEW
 70
     0
  9
$UCSORGTOP
 10
0.0
 20
0.0
 30
0.0
  9
$UCSORGBOTTOM
 10
0.0
 20
0.0
 30
0.0
  9
$UCSORGLEFT
 10
0.0
 20
0.0
 30
0.0
  9
$UCSORGRIGHT
 10
0.0
 20
0.0
 30
0.0
  9
$UCSORGFRONT
 10
0.0
 20
0.0
 30
0.0
  9
$UCSORGBACK
 10
0.0
 20
0.0
 30
0.0
  9
$PUCSBASE
  2

  9
$PUCSNAME
  2

  9
$PUCSORG
 10
0.0
 20
0.0
 30
0.0
  9
$PUCSXDIR
 10
1.0
 20
0.0
 30
0.0
  9
$PUCSYDIR
 10
0.0
 20
1.0
 30
0.0
  9
$PUCSORTHOREF
  2

  9
$PUCSORTHOVIEW
 70
     0
  9
$PUCSORGTOP
 10
0.0
 20
0.0
 30
0.0
  9
$PUCSORGBOTTOM
 10
0.0
 20
0.0
 30
0.0
  9
$PUCSORGLEFT
 10
0.0
 20
0.0
 30
0.0
  9
$PUCSORGRIGHT
 10
0.0
 20
0.0
 30
0.0
  9
$PUCSORGFRONT
 10
0.0
 20
0.0
 30
0.0
  9
$PUCSORGBACK
 10
0.0
 20
0.0
 30
0.0
  9
$USERI1
 70
     0
  9
$USERI2
 70
     0
  9
$USERI3
 70
     0
  9
$USERI4
 70
     0
  9
$USERI5
 70
     0
  9
$USERR1
 40
0.0
  9
$USERR2
 40
0.0
  9
$USERR3
 40
0.0
  9
$USERR4
 40
0.0
  9
$USERR5
 40
0.0
  9
$WORLDVIEW
 70
     1
  9
$SHADEDGE
 70
     3
  9
$SHADEDIF
 70
    70
  9
$TILEMODE
 70
     1
  9
$MAXACTVP
 70
    64
  9
$PINSBASE
 10
0.0
 20
0.0
 30
0.0
  9
$PLIMCHECK
 70
     0
  9
$PEXTMIN
 10
1.000000000000000E+20
 20
1.000000000000000E+20
 30
1.000000000000000E+20
  9
$PEXTMAX
 10
-1.000000000000000E+20
 20
-1.000000000000000E+20
 30
-1.000000000000000E+20
  9
$PLIMMIN
 10
-0.1979161059762549
 20
-0.2812499887361301
  9
$PLIMMAX
 10
10.80208365372785
 20
8.218749770967978
  9
$UNITMODE
 70
     0
  9
$VISRETAIN
 70
     1
  9
$PLINEGEN
 70
     0
  9
$PSLTSCALE
 70
     1
  9
$TREEDEPTH
 70
  3020
  9
$CMLSTYLE
  2
Standard
  9
$CMLJUST
 70
     0
  9
$CMLSCALE
 40
1.0
  9
$PROXYGRAPHICS
 70
     1
  9
$MEASUREMENT
 70
     0
  9
$CELWEIGHT
370
    -1
  9
$ENDCAPS
280
     0
  9
$JOINSTYLE
280
     0
  9
$LWDISPLAY
290
     0
  9
$INSUNITS
 70
     1
  9
$HYPERLINKBASE
  1

  9
$STYLESHEET
  1

  9
$XEDIT
290
     1
  9
$CEPSNTYPE
380
     0
  9
$PSTYLEMODE
290
     1
  9
$FINGERPRINTGUID
  2
{7E4F1DEE-29BF-11D6-A7D1-0050BAE69E35}
  9
$VERSIONGUID
  2
{8C736924-C014-11D6-9698-00A00CC137B8}
  9
$EXTNAMES
290
     1
  9
$PSVPSCALE
 40
0.0
  9
$OLESTARTUP
290
     0
  0
ENDSEC
  0
SECTION
  2
CLASSES
  0
CLASS
  1
ACDBDICTIONARYWDFLT
  2
AcDbDictionaryWithDefault
  3
AutoCAD 2000
 90
        0
280
     0
281
     0
  0
CLASS
  1
ACDBPLACEHOLDER
  2
AcDbPlaceHolder
  3
AutoCAD 2000
 90
        0
280
     0
281
     0
  0
CLASS
  1
LAYOUT
  2
AcDbLayout
  3
AutoCAD 2000
 90
        0
280
     0
281
     0
  0
CLASS
  1
AMGSETTINGSOBJ
  2
AmgSettingsObj
  3
"AcadM|Product Description: AutoCAD Mechanical 2000|Company: Autodesk"
 90
        0
280
     0
281
     0
  0
CLASS
  1
ACME_DOCUMENT
  2
AcMeDbDoc
  3
AcMeServices
 90
        0
280
     0
281
     0
  0
CLASS
  1
ACMESCOPE
  2
AcMeScope
  3
AcMeServices
 90
        0
280
     0
281
     0
  0
CLASS
  1
ACMECOMMANDHISTORY
  2
AcMeCommandHistory
  3
AcMeServices
 90
        0
280
     0
281
     0
  0
CLASS
  1
ACIMSYSVARMAN
  2
AcImSysVarManager
  3
AcMeServices
 90
        0
280
     0
281
     0
  0
CLASS
  1
ACIMREALSYSVAR
  2
AcImRealSysVar
  3
AcMeServices
 90
        0
280
     0
281
     0
  0
CLASS
  1
ACIMINTSYSVAR
  2
AcImIntSysVar
  3
AcMeServices
 90
        0
280
     0
281
     0
  0
CLASS
  1
ACMEDRAWINGMAN
  2
AcMeDrawingMan
  3
AcMeServices
 90
        0
280
     0
281
     0
  0
CLASS
  1
ACMEVIEW
  2
AcMeView
  3
AcMeServices
 90
        0
280
     0
281
     0
  0
CLASS
  1
ACDBENTITYCACHE
  2
AcMeEntityCache
  3
AcMeServices
 90
        0
280
     0
281
     0
  0
CLASS
  1
GSMANAGER
  2
AcMeGSManager
  3
AcMeServices
 90
        0
280
     0
281
     0
  0
CLASS
  1
AMDTINTERNALREACTOR
  2
AmdtInternalReactor
  3
AcMeServices
 90
        0
280
     0
281
     0
  0
CLASS
  1
ACMESTATEMGR
  2
AcMeStateMgr
  3
AcMeServices
 90
        0
280
     0
281
     0
  0
CLASS
  1
ACGREFMASTER
  2
AcGrefMaster
  3
AcAttribServices
 90
        0
280
     0
281
     0
  0
CLASS
  1
AM_DRAWING_MGR
  2
AcDmDwgMgr
  3
AcMechDwgViewMgmt
 90
        0
280
     0
281
     0
  0
CLASS
  1
AM_DWG_DOCUMENT
  2
AcDmDwgDocument
  3
AcMechDwgViewMgmt
 90
        0
280
     0
281
     0
  0
CLASS
  1
AM_DWG_SHEET
  2
AcDmSheet
  3
AcMechDwgViewMgmt
 90
        0
280
     0
281
     0
  0
CLASS
  1
AM_VIEWDIMPARMAP
  2
AcDmViewDimParMap
  3
AcMechDwgViewMgmt
 90
        0
280
     0
281
     0
  0
CLASS
  1
AM_DWGMGR_NAME
  2
AcDmDwgMgrName
  3
AcMechDwgViewMgmt
 90
        0
280
     0
281
     0
  0
CLASS
  1
ACME_DATABASE
  2
AcMeDbDatabase
  3
AcMeServices
 90
        0
280
     0
281
     0
  0
CLASS
  1
ACRFINSADJUSTERMGR
  2
AcRfInsAdjusterMgr
  3
AcMeServices
 90
        0
280
     0
281
     0
  0
CLASS
  1
ACGREFACADMASTER
  2
AcGrefacadMaster
  3
AcGrefServices
 90
        0
280
     0
281
     0
  0
CLASS
  1
AMDTMENUSTATEMGR
  2
AmdtMenuStateMgr
  3
McadcomServices
 90
        0
280
     0
281
     0
  0
CLASS
  1
AMDTMCOMMENUSTATE
  2
AmdtMcomMenuState
  3
McadcomServices
 90
        0
280
     0
281
     0
  0
CLASS
  1
AMIMASTER
  2
AmiMaster
  3
AmiServices
 90
        0
280
     0
281
     0
  0
CLASS
  1
ASAPP
  2
AcAsAppObject
  3
AutoSurfServices
 90
        0
280
     0
281
     0
  0
CLASS
  1
IM_STATIC_MAN
  2
AcImStaticVarManager
  3
AcMeServices
 90
        0
280
     0
281
     0
  0
CLASS
  1
ACIMSTRSYSVAR
  2
AcImStrSysVar
  3
AcMeServices
 90
        0
280
     0
281
     0
  0
CLASS
  1
ACIMDBLSTATICVAR
  2
AcImDblStaticVar
  3
AcMeServices
 90
        0
280
     0
281
     0
  0
CLASS
  1
ACIMSTRSTATICVAR
  2
AcImStrStaticVar
  3
AcMeServices
 90
        0
280
     0
281
     0
  0
CLASS
  1
ACIMINTSTATICVAR
  2
AcImIntStaticVar
  3
AcMeServices
 90
        0
280
     0
281
     0
  0
CLASS
  1
ACASGREFMASTER
  2
AcAsGrefMaster
  3
AutoSurfResolverServices
 90
        0
280
     0
281
     0
  0
CLASS
  1
ACADGREFMODULE
  2
AcAdGrefModule
  3
AdGrefServices
 90
        0
280
     0
281
     0
  0
CLASS
  1
AMDTMAPISURFMOUDULE
  2
AmdtMApiSurfModule
  3
MApiSurfServices
 90
        0
280
     0
281
     0
  0
CLASS
  1
MAPIAMMOUDLE
  2
MApiAmModule
  3
MApiAmServices
 90
        0
280
     0
281
     0
  0
CLASS
  1
AMDTADMENUSTATE
  2
AmdtAdMenuState
  3
DesignerServices
 90
        0
280
     0
281
     0
  0
CLASS
  1
ADAPPL
  2
AcAdAppl
  3
DesignerServices
 90
        0
280
     0
281
     0
  0
CLASS
  1
DEPMGR
  2
AcAdDepMgr
  3
DesignerServices
 90
        0
280
     0
281
     0
  0
CLASS
  1
PARAMMGR
  2
AcAdParamMgr
  3
DesignerServices
 90
        0
280
     0
281
     0
  0
CLASS
  1
PARAMSCOPE
  2
AcAdParamScope
  3
DesignerServices
 90
        0
280
     0
281
     0
  0
CLASS
  1
NAMEDAPPL
  2
AcAdNamedAppl
  3
DesignerServices
 90
        0
280
     0
281
     0
  0
CLASS
  1
AMDTDMMENUSTATE
  2
AmdtDmMenuState
  3
AcMechDwgViewMgmt
 90
        0
280
     0
281
     0
  0
CLASS
  1
MAPIADMODULE
  2
MApiAdModule
  3
MApiAdServices
 90
        0
280
     0
281
     0
  0
CLASS
  1
AMDTAMMENUSTATE
  2
AmdtAmMenuState
  3
DesignerAssemblies
 90
        0
280
     0
281
     0
  0
CLASS
  1
ACAMPROJECT
  2
AcAmProject
  3
DesignerAssemblies
 90
        0
280
     0
281
     0
  0
CLASS
  1
ACAMCOMPDEFMGR
  2
AcAmCompDefMgr
  3
DesignerAssemblies
 90
        0
280
     0
281
     0
  0
CLASS
  1
AMCONTEXTMGR
  2
AcAmContextMgr
  3
DesignerAssemblies
 90
        0
280
     0
281
     0
  0
CLASS
  1
ACAMCONTEXTPARTMODELER
  2
AcAmContextPartModeler
  3
DesignerAssemblies
 90
        0
280
     0
281
     0
  0
CLASS
  1
ACMDATADICTIONARY
  2
AcmDataDictionary
  3
"AcmSymBB|Product Description: AutoCAD Mechanical 2000|Company: Autodesk"
 90
        0
280
     0
281
     0
  0
CLASS
  1
ACMDATAENTRYBLOCK
  2
AcmDataEntryBlock
  3
"AcmSymBB|Product Description: AutoCAD Mechanical 2000|Company: Autodesk"
 90
        0
280
     0
281
     0
  0
CLASS
  1
CATALOGSTATE
  2
AcAmCatalogState
  3
DesignerAssemblies
 90
        0
280
     0
281
     0
  0
CLASS
  1
ACAMGRCOMPDEFSET
  2
AcAmGrCompDefSet
  3
DesignerAssemblies
 90
        0
280
     0
281
     0
  0
CLASS
  1
AMDTBROWSERDBTAB
  2
AmdtBrowserDbTab
  3
McadcomServices
 90
        0
280
     0
281
     0
  0
CLASS
  1
CBROWSERAPPOBJECT
  2
CBrowserAppObject
  3
McadcomServices
 90
        0
280
     0
281
     0
  0
CLASS
  1
DM_PLACEHOLDER
  2
AcDmSelsetPlaceholder
  3
AcMechDwgViewMgmt
 90
        0
280
     0
281
     0
  0
CLASS
  1
ACMSTANDARDANSI
  2
AcmStandardANSI
  3
"Amdt_StdImp|Product Description: AutoCAD Mechanical 2000|Company: Autodesk"
 90
        0
280
     0
281
     0
  0
CLASS
  1
AMGOBJPROPCFG
  2
AmgObjPropCfg
  3
"AmgLay|Product Description: AutoCAD Mechanical 2000|Company: Autodesk"
 90
        1
280
     0
281
     0
  0
CLASS
  1
ACMSURFSTANDARDANSI
  2
AcmSurfTextStdANSI
  3
"Amdt_StdImp|Product Description: AutoCAD Mechanical 2000|Company: Autodesk"
 90
        0
280
     0
281
     0
  0
CLASS
  1
ACMFCFSTANDARDANSI
  2
AcmFCFStdANSI
  3
"Amdt_StdImp|Product Description: AutoCAD Mechanical 2000|Company: Autodesk"
 90
        0
280
     0
281
     0
  0
CLASS
  1
ACMWELDSTANDARDANSI
  2
AcmWeldingStdANSI
  3
"Amdt_StdImp|Product Description: AutoCAD Mechanical 2000|Company: Autodesk"
 90
        0
280
     0
281
     0
  0
CLASS
  1
ACMIDSTANDARDANSI
  2
AcmIdStdANSI
  3
"Amdt_StdImp|Product Description: AutoCAD Mechanical 2000|Company: Autodesk"
 90
        0
280
     0
281
     0
  0
CLASS
  1
ACMDATUMSTANDARDANSI
  2
AcmDatumStdANSI
  3
"Amdt_StdImp|Product Description: AutoCAD Mechanical 2000|Company: Autodesk"
 90
        0
280
     0
281
     0
  0
CLASS
  1
ACMBOMSTANDARDANSI
  2
AcmBOMStdANSI
  3
"Amdt_StdImp|Product Description: AutoCAD Mechanical 2000|Company: Autodesk"
 90
        0
280
     0
281
     0
  0
CLASS
  1
ACMDETAILSTANDARDANSI
  2
AmdtDetailSymStdANSI
  3
"Amdt_StdImp|Product Description: AutoCAD Mechanical 2000|Company: Autodesk"
 90
        0
280
     0
281
     0
  0
CLASS
  1
ACMSECTIONSTANDARDANSI
  2
AmdtSectionSymStdANSI
  3
"Amdt_StdImp|Product Description: AutoCAD Mechanical 2000|Company: Autodesk"
 90
        0
280
     0
281
     0
  0
CLASS
  1
ACMCENTERLINESTANDARDANSI
  2
AmdtCenterLineStdANSI
  3
"Amdt_StdImp|Product Description: AutoCAD Mechanical 2000|Company: Autodesk"
 90
        0
280
     0
281
     0
  0
CLASS
  1
ACMTHREADLINESTANDARDANSI
  2
AmdtThreadLineStdANSI
  3
"Amdt_StdImp|Product Description: AutoCAD Mechanical 2000|Company: Autodesk"
 90
        0
280
     0
281
     0
  0
CLASS
  1
ACMNOTESTANDARDANSI
  2
AmdtNoteStdANSI
  3
"Amdt_StdImp|Product Description: AutoCAD Mechanical 2000|Company: Autodesk"
 90
        0
280
     0
281
     0
  0
CLASS
  1
ACAMGLAYSTD
  2
AcAmgLayStd
  3
"AcAmgLayStd|Product Description: AutoCAD Mechanical 2000|Company: Autodesk"
 90
        0
280
     0
281
     0
  0
CLASS
  1
ACAMGDIMSTD
  2
AcAmgDimStd
  3
"AcAmgDimStd|Product Description: AutoCAD Mechanical 2000|Company: Autodesk"
 90
        0
280
     0
281
     0
  0
CLASS
  1
ACAMGHOLECHARTSTDANSI
  2
AcAmgHoleChartStdANSI
  3
ACMSYMBB_MODULE_NAME
 90
        0
280
     0
281
     0
  0
CLASS
  1
ACAMGTITLESTD
  2
AcAmgTitleStd
  3
"TITLEAPP"
 90
        0
280
     0
281
     0
  0
CLASS
  1
ACAMGFILTERDAT
  2
AcAmgFilterDat
  3
"AcadM|Product Description: AutoCAD Mechanical 2000|Company: Autodesk"
 90
        0
280
     0
281
     0
  0
CLASS
  1
AMDTFORMULAUPDATEDISPATCHER
  2
AmdtFormulaUpdateDispatcher
  3
AcMeServices
 90
        0
280
     0
281
     0
  0
CLASS
  1
LAYER_INDEX
  2
AcDbLayerIndex
  3
AutoCAD 2000
 90
        0
280
     0
281
     0
  0
CLASS
  1
IDBUFFER
  2
AcDbIdBuffer
  3
AutoCAD 2000
 90
        0
280
     0
281
     0
  0
CLASS
  1
DICTIONARYVAR
  2
AcDbDictionaryVar
  3
AutoCAD 2000
 90
        0
280
     0
281
     0
  0
ENDSEC
  0
SECTION
  2
TABLES
  0
TABLE
  2
VPORT
  5
8
330
0
100
AcDbSymbolTable
 70
     3
  0
VPORT
  5
1375
330
8
100
AcDbSymbolTableRecord
100
AcDbViewportTableRecord
  2
*Active
 70
     0
 10
0.0
 20
0.0
 11
1.0
 21
1.0
 12
15.49158788185265
 22
1.201706247407354
 13
0.0
 23
0.0
 14
0.5
 24
0.5
 15
0.5
 25
0.5
 16
0.0
 26
0.0
 36
1.0
 17
6.0
 27
4.603396603396602
 37
0.0
 40
40.42876900223253
 41
1.212484993997599
 42
50.0
 43
0.0
 44
0.0
 50
0.0
 51
0.0
 71
     0
 72
   100
 73
     1
 74
     3
 75
     0
 76
     0
 77
     0
 78
     0
281
     0
 65
     0
110
0.0
120
0.0
130
0.0
111
1.0
121
0.0
131
0.0
112
0.0
122
1.0
132
0.0
 79
     0
146
0.0
  0
ENDTAB
  0
TABLE
  2
LTYPE
  5
5
330
0
100
AcDbSymbolTable
 70
    12
  0
LTYPE
  5
14
330
5
100
AcDbSymbolTableRecord
100
AcDbLinetypeTableRecord
  2
ByBlock
 70
     0
  3

 72
    65
 73
     0
 40
0.0
  0
LTYPE
  5
15
330
5
100
AcDbSymbolTableRecord
100
AcDbLinetypeTableRecord
  2
ByLayer
 70
     0
  3

 72
    65
 73
     0
 40
0.0
  0
LTYPE
  5
16
330
5
100
AcDbSymbolTableRecord
100
AcDbLinetypeTableRecord
  2
Continuous
 70
     0
  3
Solid line
 72
    65
 73
     0
 40
0.0
  0
LTYPE
  5
52
330
5
100
AcDbSymbolTableRecord
100
AcDbLinetypeTableRecord
  2
HIDDEN
 70
     0
  3
Hidden __ __ __ __ __ __ __ __ __ __ __ __ __ _
 72
    65
 73
     2
 40
0.375
 49
0.25
 74
     0
 49
-0.125
 74
     0
  0
LTYPE
  5
53
330
5
100
AcDbSymbolTableRecord
100
AcDbLinetypeTableRecord
  2
PHANTOM2
 70
     0
  3
Phantom (.5x) ___ _ _ ___ _ _ ___ _ _ ___ _ _
 72
    65
 73
     6
 40
1.25
 49
0.625
 74
     0
 49
-0.125
 74
     0
 49
0.125
 74
     0
 49
-0.125
 74
     0
 49
0.125
 74
     0
 49
-0.125
 74
     0
  0
LTYPE
  5
54
330
5
100
AcDbSymbolTableRecord
100
AcDbLinetypeTableRecord
  2
CENTER
 70
     0
  3
Center ____ _ ____ _ ____ _ ____ _ ____ _ ____
 72
    65
 73
     4
 40
2.0
 49
1.25
 74
     0
 49
-0.25
 74
     0
 49
0.25
 74
     0
 49
-0.25
 74
     0
  0
LTYPE
  5
F8
330
5
100
AcDbSymbolTableRecord
100
AcDbLinetypeTableRecord
  2
Amconstr
 70
     0
  3
_______________________
 72
    65
 73
     2
 40
9999.0
 49
9999.0
 74
     0
 49
0.0
 74
     0
  0
LTYPE
  5
FE
330
5
100
AcDbSymbolTableRecord
100
AcDbLinetypeTableRecord
  2
CENTER2
 70
     0
  3
Center (.5x) ___ _ ___ _ ___ _ ___ _ ___ _ ___
 72
    65
 73
     4
 40
1.125
 49
0.75
 74
     0
 49
-0.125
 74
     0
 49
0.125
 74
     0
 49
-0.125
 74
     0
  0
LTYPE
  5
FF
330
5
100
AcDbSymbolTableRecord
100
AcDbLinetypeTableRecord
  2
HIDDEN2
 70
     0
  3
Hidden (.5x) _ _ _ _ _ _ _ _ _ _ _ _ _ _ _ _ _
 72
    65
 73
     2
 40
0.1875
 49
0.125
 74
     0
 49
-0.0625
 74
     0
  0
LTYPE
  5
100
330
5
100
AcDbSymbolTableRecord
100
AcDbLinetypeTableRecord
  2
Amzigzag2
 70
     0
  3
/\/-/\/-/\/-/\/-/\/-/\/
 72
    65
 73
     2
 40
0.4401
 49
0.0001
 74
     4
 75
   135
340
FC
 46
0.0016
 50
0.0
 44
0.0
 45
0.0
 49
-0.4400000000000001
 74
     0
  0
LTYPE
  5
10E
330
5
100
AcDbSymbolTableRecord
100
AcDbLinetypeTableRecord
  2
ACANSTGB
 70
     0
  3
__ . . __ . .
 72
    65
 73
     6
 40
0.35433070866
 49
0.15748031496
 74
     0
 49
-0.03937007874
 74
     0
 49
0.03937007874
 74
     0
 49
-0.03937007874
 74
     0
 49
0.03937007874
 74
     0
 49
-0.03937007874
 74
     0
  0
LTYPE
  5
10F
330
5
100
AcDbSymbolTableRecord
100
AcDbLinetypeTableRecord
  2
ACANSTGL
 70
     0
  3
_ _ _ _ _
 72
    65
 73
     2
 40
0.11811023622
 49
0.07874015748
 74
     0
 49
-0.03937007874
 74
     0
  0
LTYPE
  5
1365
330
5
100
AcDbSymbolTableRecord
100
AcDbLinetypeTableRecord
  2
ASULTYPE
 70
     0
  3
Solid line
 72
    65
 73
     2
 40
3.0
 49
2.5
 74
     0
 49
0.5
 74
     0
  0
LTYPE
  5
1366
330
5
100
AcDbSymbolTableRecord
100
AcDbLinetypeTableRecord
  2
ASVLTYPE
 70
     0
  3
__ __ __ __ __ __ __ __ __ __ __ __ __ __ __ __ __ __ __ __ __
 72
    65
 73
     2
 40
0.75
 49
0.5
 74
     0
 49
-0.25
 74
     0
  0
ENDTAB
  0
TABLE
  2
LAYER
  5
2
102
{ACAD_XDICTIONARY
360
120
102
}
330
0
100
AcDbSymbolTable
 70
     1
  0
LAYER
  5
10
330
2
100
AcDbSymbolTableRecord
100
AcDbLayerTableRecord
  2
0
 70
     0
 62
     7
  6
Continuous
370
    -3
390
F
  0
ENDTAB
  0
TABLE
  2
STYLE
  5
3
330
0
100
AcDbSymbolTable
 70
     5
  0
STYLE
  5
11
330
3
100
AcDbSymbolTableRecord
100
AcDbTextStyleTableRecord
  2
Standard
 70
     0
 40
0.0
 41
1.0
 50
0.0
 71
     0
 42
0.2
  3
txt
  4

  0
STYLE
  5
FC
330
3
100
AcDbSymbolTableRecord
100
AcDbTextStyleTableRecord
  2

 70
     1
 40
0.0
 41
1.0
 50
0.0
 71
     0
 42
0.2
  3
ltypeshp.shx
  4

  0
STYLE
  5
101
330
3
100
AcDbSymbolTableRecord
100
AcDbTextStyleTableRecord
  2
ACANSTS
 70
     0
 40
1.0
 41
1.0
 50
0.0
 71
     0
 42
0.2
  3
romans.shx
  4

  0
STYLE
  5
10D
330
3
100
AcDbSymbolTableRecord
100
AcDbTextStyleTableRecord
  2
ACANSGDT
 70
     0
 40
0.0
 41
1.0
 50
0.0
 71
     0
 42
0.2
  3
amgdtans.shx
  4

  0
STYLE
  5
125
330
3
100
AcDbSymbolTableRecord
100
AcDbTextStyleTableRecord
  2
ADESK1
 70
     0
 40
0.09375
 41
1.0
 50
0.0
 71
     0
 42
0.09375
  3
romans.shx
  4

  0
ENDTAB
  0
TABLE
  2
VIEW
  5
6
330
0
100
AcDbSymbolTable
 70
     0
  0
ENDTAB
  0
TABLE
  2
UCS
  5
7
330
0
100
AcDbSymbolTable
 70
     0
  0
ENDTAB
  0
TABLE
  2
APPID
  5
9
330
0
100
AcDbSymbolTable
 70
    13
  0
APPID
  5
12
330
9
100
AcDbSymbolTableRecord
100
AcDbRegAppTableRecord
  2
ACAD
 70
     0
  0
APPID
  5
2E
330
9
100
AcDbSymbolTableRecord
100
AcDbRegAppTableRecord
  2
GENIUS_GENDIM_13
 70
     0
  0
APPID
  5
2F
330
9
100
AcDbSymbolTableRecord
100
AcDbRegAppTableRecord
  2
GENIUS_GENDTOL_13
 70
     0
  0
APPID
  5
30
330
9
100
AcDbSymbolTableRecord
100
AcDbRegAppTableRecord
  2
GENIUS_GE3DTOL_13
 70
     0
  0
APPID
  5
33
330
9
100
AcDbSymbolTableRecord
100
AcDbRegAppTableRecord
  2
MCAD_NO_VIS
 70
     0
  0
APPID
  5
34
330
9
100
AcDbSymbolTableRecord
100
AcDbRegAppTableRecord
  2
ACAD_TEMP_GRAPHIC
 70
     0
  0
APPID
  5
69
330
9
100
AcDbSymbolTableRecord
100
AcDbRegAppTableRecord
  2
AD_DRAW
 70
     0
  0
APPID
  5
6C
330
9
100
AcDbSymbolTableRecord
100
AcDbRegAppTableRecord
  2
ACATTRIBSERVICES
 70
     0
  0
APPID
  5
B8
330
9
100
AcDbSymbolTableRecord
100
AcDbRegAppTableRecord
  2
ASURF_PCURVE_APPNAME
 70
     0
  0
APPID
  5
BD
330
9
100
AcDbSymbolTableRecord
100
AcDbRegAppTableRecord
  2
AMG_3D2D_5.0
 70
     0
  0
APPID
  5
E2
330
9
100
AcDbSymbolTableRecord
100
AcDbRegAppTableRecord
  2
DESIGNERASSEMBLIES
 70
     0
  0
APPID
  5
EA
330
9
100
AcDbSymbolTableRecord
100
AcDbRegAppTableRecord
  2
ACADM_DIM_EDIT
 70
     0
  0
APPID
  5
EB
330
9
100
AcDbSymbolTableRecord
100
AcDbRegAppTableRecord
  2
AMDT_DM_ADJ
 70
     0
  0
ENDTAB
  0
TABLE
  2
DIMSTYLE
  5
A
330
0
100
AcDbSymbolTable
 70
     7
100
AcDbDimStyleTable
 71
     2
340
113
340
11C
  0
DIMSTYLE
105
113
330
A
100
AcDbSymbolTableRecord
100
AcDbDimStyleTableRecord
  2
AM_ANSI
 70
     0
  4
mm
 41
0.1
 42
0.05
 43
0.5
 44
0.1
 47
0.1
 48
0.1
 78
     7
 79
     2
140
0.12
141
0.0
146
0.71
147
0.06
176
     4
177
     4
178
   256
179
     1
271
     3
272
     3
284
     7
340
125
371
    -1
372
    -1
  0
DIMSTYLE
105
114
330
A
100
AcDbSymbolTableRecord
100
AcDbDimStyleTableRecord
  2
AM_ANSI$3
 70
     0
  4
mm
 41
0.1
 42
0.05
 43
0.5
 44
0.1
 47
0.1
 48
0.1
 78
     7
 79
     2
140
0.12
141
0.0
146
0.71
147
0.06
176
     4
177
     4
178
   256
179
     1
271
     3
272
     3
284
     7
288
     1
289
     0
340
125
371
    -1
372
    -1
  0
DIMSTYLE
105
115
330
A
100
AcDbSymbolTableRecord
100
AcDbDimStyleTableRecord
  2
AM_ANSI$4
 70
     0
  4
mm
 41
0.1
 42
0.05
 43
0.5
 44
0.1
 47
0.1
 48
0.1
 78
     7
 79
     2
140
0.12
141
0.0
146
0.71
147
0.06
176
     4
177
     4
178
   256
179
     1
271
     3
272
     3
284
     7
288
     1
289
     0
340
125
371
    -1
372
    -1
  0
DIMSTYLE
105
116
330
A
100
AcDbSymbolTableRecord
100
AcDbDimStyleTableRecord
  2
AM_ANSI$7
 70
     0
  4
mm
 41
0.1
 42
0.05
 43
0.5
 44
0.1
 47
0.1
 48
0.1
 78
     7
 79
     2
140
0.24
141
0.0
146
0.71
147
0.06
176
     4
177
     4
178
   256
179
     1
271
     3
272
     3
284
     7
340
125
371
    -1
372
    -1
  0
DIMSTYLE
105
117
330
A
100
AcDbSymbolTableRecord
100
AcDbDimStyleTableRecord
  2
AM_ANSI$SF
 70
     0
  4
mm
 41
0.1
 42
0.05
 43
0.5
 44
0.1
 47
0.1
 48
0.1
 75
     1
 76
     1
 78
     7
 79
     2
140
0.12
141
0.0
146
0.71
147
0.06
176
   256
177
   256
178
     2
274
     4
284
     7
340
11
371
    -1
372
    -1
  0
DIMSTYLE
105
11C
330
A
100
AcDbSymbolTableRecord
100
AcDbDimStyleTableRecord
  2
AM_ANSI$SH
 70
     0
  4
mm
 41
0.1
 42
0.05
 43
0.5
 44
0.1
 47
0.1
 48
0.1
 75
     1
 76
     1
 78
     7
 79
     2
140
0.12
141
0.0
146
0.71
147
0.06
173
     1
176
   256
177
   256
178
     2
274
     4
284
     7
340
11
343
118
371
    -1
372
    -1
  0
DIMSTYLE
105
208
330
A
100
AcDbSymbolTableRecord
100
AcDbDimStyleTableRecord
  2
Standard
 70
     0
340
11
  0
ENDTAB
  0
TABLE
  2
BLOCK_RECORD
  5
1
330
0
100
AcDbSymbolTable
 70
     1
  0
BLOCK_RECORD
  5
1F
102
{ACAD_XDICTIONARY
360
153
102
}
330
1
100
AcDbSymbolTableRecord
100
AcDbBlockTableRecord
  2
*Model_Space
340
22
  0
BLOCK_RECORD
  5
182
330
1
100
AcDbSymbolTableRecord
100
AcDbBlockTableRecord
  2
*Paper_Space
340
183
  0
BLOCK_RECORD
  5
118
330
1
100
AcDbSymbolTableRecord
100
AcDbBlockTableRecord
  2
GENAXEH
340
0
  0
ENDTAB
  0
ENDSEC
  0
SECTION
  2
BLOCKS
  0
BLOCK
  5
20
330
1F
100
AcDbEntity
  8
0
100
AcDbBlockBegin
  2
*Model_Space
 70
     0
 10
0.0
 20
0.0
 30
0.0
  3
*Model_Space
  1

  0
ENDBLK
  5
21
330
1F
100
AcDbEntity
  8
0
100
AcDbBlockEnd
  0
BLOCK
  5
184
330
182
100
AcDbEntity
 67
     1
  8
0
100
AcDbBlockBegin
  2
*Paper_Space
 70
     0
 10
0.0
 20
0.0
 30
0.0
  3
*Paper_Space
  1

  0
ENDBLK
  5
185
330
182
100
AcDbEntity
 67
     1
  8
0
100
AcDbBlockEnd
  0
BLOCK
  5
11A
330
118
100
AcDbEntity
  8
0
100
AcDbBlockBegin
  2
GENAXEH
 70
     0
 10
0.0
 20
0.0
 30
0.0
  3
GENAXEH
  1

  0
LINE
  5
119
330
118
100
AcDbEntity
  8
0
100
AcDbLine
 10
-1.0
 20
0.0
 30
0.0
 11
1.0
 21
0.0
 31
0.0
  0
ENDBLK
  5
11B
330
118
100
AcDbEntity
  8
0
100
AcDbBlockEnd
  0
ENDSEC
  0
SECTION
  2
ENTITIES
  0
TEXT
  5
14B
330
1F
100
AcDbEntity
  8
0
100
AcDbText
 10
18.78886769804479
 20
10.9374999999999
 30
-0.0000000000012248
 40
0.25
  1
CORRESPONDS TO F-1003A
  7
ADESK1
 72
     1
 11
21.49124865042574
 21
10.9374999999999
 31
-0.0000000000012248
100
AcDbText
1001
ACAD
1000
R13OBJECT
1002
{
1005
0
1002
}
  0
TEXT
  5
14C
330
1F
100
AcDbEntity
  8
0
100
AcDbText
 10
18.3186296028067
 20
11.3124999999999
 30
-0.0000000000012248
 40
0.25
  1
F1003A-1.DXF CREATED 9/4/02
  7
ADESK1
 72
     1
 11
21.49124865042574
 21
11.3124999999999
 31
-0.0000000000012248
100
AcDbText
  0
LINE
  5
12C9
330
1F
100
AcDbEntity
  8
0
100
AcDbLine
 10
42.9824973008515
 20
-0.0000000000000053
 30
0.0
 11
0.0
 21
0.0
 31
0.0
  0
LINE
  5
12CA
330
1F
100
AcDbEntity
  8
0
100
AcDbLine
 10
16.7645996478698
 20
10.81250000000004
 30
0.0000000000000038
 11
26.21789765298171
 21
10.81250000000004
 31
0.0000000000000038
  0
CIRCLE
  5
12CB
330
1F
100
AcDbEntity
  8
0
100
AcDbCircle
 10
18.51803436475241
 20
0.3124999999999911
 30
0.0000000000000032
 40
0.083
  0
CIRCLE
  5
12CC
330
1F
100
AcDbEntity
  8
0
100
AcDbCircle
 10
21.49124865046669
 20
0.3124999999999876
 30
0.0000000000000032
 40
0.083
  0
LINE
  5
12CD
330
1F
100
AcDbEntity
  8
0
100
AcDbLine
 10
14.42867670548337
 20
10.77774310208647
 30
0.0000000000000038
 11
15.14049696785389
 21
10.79511386747991
 31
0.0000000000000038
  0
LINE
  5
12CE
330
1F
100
AcDbEntity
  8
0
100
AcDbLine
 10
12.99417602899463
 20
10.71555833839983
 30
0.0000000000000042
 11
13.71267584609
 21
10.75178536516356
 31
0.0000000000000042
  0
LINE
  5
12CF
330
1F
100
AcDbEntity
  8
0
100
AcDbLine
 10
10.83883669344889
 20
10.52843882019199
 30
0.0000000000000037
 11
11.55579104326034
 21
10.60556732148907
 31
0.0000000000000041
  0
CIRCLE
  5
12D0
330
1F
100
AcDbEntity
  8
0
100
AcDbCircle
 10
9.366248650415293
 20
9.550599760000004
 30
0.0000000000000156
 40
0.083
  0
LINE
  5
12D1
330
1F
100
AcDbEntity
  8
0
100
AcDbLine
 10
9.416573236587842
 20
10.32150459749576
 30
0.0000000000000036
 11
10.12529002370792
 21
10.43431199348716
 31
0.0000000000000036
  0
LINE
  5
12D2
330
1F
100
AcDbEntity
  8
0
100
AcDbLine
 10
8.019288931541373
 20
10.03311912876095
 30
0.0000000000000034
 11
8.714102251409252
 21
10.18833438979179
 31
0.0000000000000035
  0
LINE
  5
12D3
330
1F
100
AcDbEntity
  8
0
100
AcDbLine
 10
8.714102251409252
 20
10.18833438979179
 30
0.0000000000000035
 11
9.416573236587842
 21
10.32150459749576
 31
0.0000000000000036
  0
LINE
  5
12D4
330
1F
100
AcDbEntity
  8
0
100
AcDbLine
 10
10.12529002370792
 20
10.43431199348716
 30
0.0000000000000036
 11
10.83883669344889
 21
10.52843882019199
 31
0.0000000000000037
  0
CIRCLE
  5
12D5
330
1F
100
AcDbEntity
  8
0
100
AcDbCircle
 10
11.77497814045234
 20
10.31069417
 30
0.000000000000012
 40
0.083
  0
LINE
  5
12D6
330
1F
100
AcDbEntity
  8
0
100
AcDbLine
 10
11.55579104326034
 20
10.60556732148907
 30
0.0000000000000041
 11
12.2747207115083
 21
10.66737974384264
 31
0.0000000000000037
  0
LINE
  5
12D7
330
1F
100
AcDbEntity
  8
0
100
AcDbLine
 10
12.2747207115083
 20
10.66737974384264
 30
0.0000000000000037
 11
12.99417602899463
 21
10.71555833839983
 31
0.0000000000000042
  0
CIRCLE
  5
12D8
330
1F
100
AcDbEntity
  8
0
100
AcDbCircle
 10
14.20062305047517
 20
10.45672351
 30
0.0000000000000094
 40
0.083
  0
LINE
  5
12D9
330
1F
100
AcDbEntity
  8
0
100
AcDbLine
 10
13.71267584609
 20
10.75178536516356
 30
0.0000000000000042
 11
14.42867670548337
 21
10.77774310208647
 31
0.0000000000000038
  0
CIRCLE
  5
12DA
330
1F
100
AcDbEntity
  8
0
100
AcDbCircle
 10
16.63053272045244
 20
10.49830468999999
 30
0.0000000000000165
 40
0.083
  0
CIRCLE
  5
12DB
330
1F
100
AcDbEntity
  8
0
100
AcDbCircle
 10
19.06088945044558
 20
10.5
 30
0.0000000000000094
 40
0.083
  0
CIRCLE
  5
12DC
330
1F
100
AcDbEntity
  8
0
100
AcDbCircle
 10
21.8352486528164
 20
10.02428363999999
 30
0.0000000000000061
 40
0.083
  0
LINE
  5
12DD
330
1F
100
AcDbEntity
  8
0
100
AcDbLine
 10
15.84609436798516
 20
10.80558008574411
 30
0.0000000000000038
 11
16.7645996478698
 21
10.81250000000004
 31
0.0000000000000038
  0
LINE
  5
12DE
330
1F
100
AcDbEntity
  8
0
100
AcDbLine
 10
15.14049696785389
 20
10.79511386747991
 30
0.0000000000000038
 11
15.84609436798516
 21
10.80558008574411
 31
0.0000000000000038
  0
LINE
  5
12DF
330
1F
100
AcDbEntity
  8
0
100
AcDbLine
 10
42.0630048336
 20
5.77238949547206
 30
0.0000000000000019
 11
42.30109177137949
 21
5.439069763285521
 31
0.0000000000000022
  0
CIRCLE
  5
12E0
330
1F
100
AcDbEntity
  8
0
100
AcDbCircle
 10
36.35732007903812
 20
0.3124999999999787
 30
0.0000000000000032
 40
0.083
  0
CIRCLE
  5
12E1
330
1F
100
AcDbEntity
  8
0
100
AcDbCircle
 10
24.46446293618098
 20
0.3124999999999858
 30
0.0000000000000032
 40
0.083
  0
CIRCLE
  5
12E2
330
1F
100
AcDbEntity
  8
0
100
AcDbCircle
 10
27.43767722189526
 20
0.3124999999999964
 30
0.0000000000000032
 40
0.083
  0
CIRCLE
  5
12E3
330
1F
100
AcDbEntity
  8
0
100
AcDbCircle
 10
30.41089150760955
 20
0.3124999999999964
 30
0.0000000000000032
 40
0.083
  0
CIRCLE
  5
12E4
330
1F
100
AcDbEntity
  8
0
100
AcDbCircle
 10
33.38410579332383
 20
0.3124999999999822
 30
0.0000000000000032
 40
0.083
  0
LINE
  5
12E5
330
1F
100
AcDbEntity
  8
0
100
AcDbLine
 10
43.60973634214525
 20
2.511177039795287
 30
0.0000000000000009
 11
43.69330671114212
 21
2.103634932291123
 31
0.0000000000000009
  0
LINE
  5
12E6
330
1F
100
AcDbEntity
  8
0
100
AcDbLine
 10
43.7712011011311
 20
1.50809924917266
 30
0.0000000000000006
 11
42.97367485074774
 21
1.471229279578876
 31
0.0000000000000008
  0
LINE
  5
12E7
330
1F
100
AcDbEntity
  8
0
100
AcDbLine
 10
42.91413494104998
 20
1.405760163557266
 30
0.0000000000000008
 11
42.9824973008515
 21
-0.0000000000000053
 31
0.0
  0
CIRCLE
  5
12E8
330
1F
100
AcDbEntity
  8
0
100
AcDbCircle
 10
39.3305343647524
 20
0.3124999999999769
 30
0.0000000000000032
 40
0.083
  0
CIRCLE
  5
12E9
330
1F
100
AcDbEntity
  8
0
100
AcDbCircle
 10
42.30374865046669
 20
0.3124999999999733
 30
0.0000000000000033
 40
0.083
  0
ARC
  5
12EA
330
1F
100
AcDbEntity
  8
0
100
AcDbCircle
 10
42.97656116894299
 20
1.408795961812833
 30
0.0000000000008291
 40
0.0625
210
0.000000000000054
220
-0.0000000000010604
230
1.0
100
AcDbArc
 50
92.64692302963927
 51
182.7841103378378
  0
CIRCLE
  5
12EB
330
1F
100
AcDbEntity
  8
0
100
AcDbCircle
 10
43.36517003045988
 20
2.141561349999994
 30
0.0000000000000018
 40
0.083
  0
LINE
  5
12EC
330
1F
100
AcDbEntity
  8
0
100
AcDbLine
 10
43.69330671114212
 20
2.103634932291123
 30
0.0000000000000009
 11
43.75442743128215
 21
1.692184671278385
 31
0.0000000000000007
  0
LINE
  5
12ED
330
1F
100
AcDbEntity
  8
0
100
AcDbLine
 10
43.75442743128215
 20
1.692184671278385
 30
0.0000000000000007
 11
43.7712011011311
 21
1.50809924917266
 31
0.0000000000000006
  0
LINE
  5
12EE
330
1F
100
AcDbEntity
  8
0
100
AcDbLine
 10
43.50455231963389
 20
2.914153918180508
 30
0.0000000000000013
 11
43.60973634214525
 21
2.511177039795287
 31
0.0000000000000009
  0
LINE
  5
12EF
330
1F
100
AcDbEntity
  8
0
100
AcDbLine
 10
43.06283196851142
 20
4.097432005488782
 30
0.0000000000000016
 11
43.22991144869194
 21
3.709901570386341
 31
0.0000000000000014
  0
LINE
  5
12F0
330
1F
100
AcDbEntity
  8
0
100
AcDbLine
 10
43.3775635968811
 20
3.314801554592184
 30
0.000000000000001
 11
43.50455231963389
 21
2.914153918180508
 31
0.0000000000000013
  0
LINE
  5
12F1
330
1F
100
AcDbEntity
  8
0
100
AcDbLine
 10
43.22991144869194
 20
3.709901570386341
 30
0.0000000000000014
 11
43.3775635968811
 21
3.314801554592184
 31
0.000000000000001
  0
LINE
  5
12F2
330
1F
100
AcDbEntity
  8
0
100
AcDbLine
 10
42.51304973767692
 20
5.114122835496251
 30
0.0000000000000019
 11
42.70046118933263
 21
4.799880297317299
 31
0.0000000000000019
  0
LINE
  5
12F3
330
1F
100
AcDbEntity
  8
0
100
AcDbLine
 10
42.8795659554447
 20
4.471828219875765
 30
0.0000000000000016
 11
43.06283196851142
 21
4.097432005488782
 31
0.0000000000000016
  0
CIRCLE
  5
12F4
330
1F
100
AcDbEntity
  8
0
100
AcDbCircle
 10
42.43473712037743
 20
4.630444049999999
 30
-0.000000000000003
 40
0.083
  0
LINE
  5
12F5
330
1F
100
AcDbEntity
  8
0
100
AcDbLine
 10
42.70046118933263
 20
4.799880297317299
 30
0.0000000000000019
 11
42.8795659554447
 21
4.471828219875765
 31
0.0000000000000016
  0
LINE
  5
12F6
330
1F
100
AcDbEntity
  8
0
100
AcDbLine
 10
42.30109177137949
 20
5.439069763285521
 30
0.0000000000000022
 11
42.51304973767692
 21
5.114122835496251
 31
0.0000000000000019
  0
LINE
  5
12F7
330
1F
100
AcDbEntity
  8
0
100
AcDbLine
 10
36.32422728402185
 20
9.64982448215975
 30
0.0000000000000038
 11
36.93307479032259
 21
9.43741018566812
 31
0.0000000000000037
  0
LINE
  5
12F8
330
1F
100
AcDbEntity
  8
0
100
AcDbLine
 10
28.55382059536813
 20
10.77774310208645
 30
0.0000000000000038
 11
29.2698214547615
 21
10.75178536516356
 31
0.0000000000000043
  0
CIRCLE
  5
12F9
330
1F
100
AcDbEntity
  8
0
100
AcDbCircle
 10
23.92160785040578
 20
10.5
 30
0.0000000000000095
 40
0.083
  0
CIRCLE
  5
12FA
330
1F
100
AcDbEntity
  8
0
100
AcDbCircle
 10
26.35196458039891
 20
10.49830469
 30
0.0000000000000148
 40
0.083
  0
CIRCLE
  5
12FB
330
1F
100
AcDbEntity
  8
0
100
AcDbCircle
 10
28.78187425037619
 20
10.45672350999999
 30
0.000000000000009
 40
0.083
  0
LINE
  5
12FC
330
1F
100
AcDbEntity
  8
0
100
AcDbLine
 10
27.13640293286635
 20
10.80558008574411
 30
0.0000000000000038
 11
27.84200033299762
 21
10.7951138674799
 31
0.0000000000000038
  0
LINE
  5
12FD
330
1F
100
AcDbEntity
  8
0
100
AcDbLine
 10
26.21789765298171
 20
10.81250000000004
 30
0.0000000000000038
 11
27.13640293286635
 21
10.80558008574411
 31
0.0000000000000038
  0
LINE
  5
12FE
330
1F
100
AcDbEntity
  8
0
100
AcDbLine
 10
27.84200033299762
 20
10.7951138674799
 30
0.0000000000000038
 11
28.55382059536813
 21
10.77774310208645
 31
0.0000000000000038
  0
LINE
  5
12FF
330
1F
100
AcDbEntity
  8
0
100
AcDbLine
 10
29.2698214547615
 20
10.75178536516356
 30
0.0000000000000043
 11
29.98832127185687
 21
10.71555833839983
 31
0.0000000000000042
  0
LINE
  5
1300
330
1F
100
AcDbEntity
  8
0
100
AcDbLine
 10
32.14366060740261
 20
10.52843882019199
 30
0.0000000000000042
 11
32.85720727714359
 21
10.43431199348716
 31
0.0000000000000037
  0
LINE
  5
1301
330
1F
100
AcDbEntity
  8
0
100
AcDbLine
 10
30.7077765893432
 20
10.66737974384264
 30
0.0000000000000033
 11
31.42670625759116
 21
10.60556732148907
 31
0.0000000000000038
  0
LINE
  5
1302
330
1F
100
AcDbEntity
  8
0
100
AcDbLine
 10
29.98832127185687
 20
10.71555833839983
 30
0.0000000000000042
 11
30.7077765893432
 21
10.66737974384264
 31
0.0000000000000033
  0
CIRCLE
  5
1303
330
1F
100
AcDbEntity
  8
0
100
AcDbCircle
 10
31.20751916039903
 20
10.31069417
 30
0.0000000000000103
 40
0.083
  0
LINE
  5
1304
330
1F
100
AcDbEntity
  8
0
100
AcDbLine
 10
31.42670625759116
 20
10.60556732148907
 30
0.0000000000000038
 11
32.14366060740261
 21
10.52843882019199
 31
0.0000000000000042
  0
LINE
  5
1305
330
1F
100
AcDbEntity
  8
0
100
AcDbLine
 10
34.96320836931013
 20
10.03311912876095
 30
0.0000000000000035
 11
35.64895487386365
 21
9.854176573215536
 31
0.0000000000000034
  0
CIRCLE
  5
1306
330
1F
100
AcDbEntity
  8
0
100
AcDbCircle
 10
33.61624865043608
 20
9.550599760000004
 30
0.0000000000000139
 40
0.083
  0
CIRCLE
  5
1307
330
1F
100
AcDbEntity
  8
0
100
AcDbCircle
 10
36.20617132044048
 20
9.356134159999989
 30
0.0000000000000045
 40
0.083
  0
LINE
  5
1308
330
1F
100
AcDbEntity
  8
0
100
AcDbLine
 10
35.64895487386365
 20
9.854176573215536
 30
0.0000000000000034
 11
36.32422728402185
 21
9.64982448215975
 31
0.0000000000000038
  0
LINE
  5
1309
330
1F
100
AcDbEntity
  8
0
100
AcDbLine
 10
34.26839504944225
 20
10.18833438979179
 30
0.000000000000004
 11
34.96320836931013
 21
10.03311912876095
 31
0.0000000000000035
  0
LINE
  5
130A
330
1F
100
AcDbEntity
  8
0
100
AcDbLine
 10
32.85720727714359
 20
10.43431199348716
 30
0.0000000000000037
 11
33.56592406426366
 21
10.32150459749577
 31
0.0000000000000041
  0
LINE
  5
130B
330
1F
100
AcDbEntity
  8
0
100
AcDbLine
 10
33.56592406426366
 20
10.32150459749577
 30
0.0000000000000041
 11
34.26839504944225
 21
10.18833438979179
 31
0.000000000000004
  0
LINE
  5
130C
330
1F
100
AcDbEntity
  8
0
100
AcDbLine
 10
37.42869667997409
 20
9.244163994984937
 30
0.0000000000000031
 11
37.91993843359842
 21
9.031316926128432
 31
0.0000000000000035
  0
LINE
  5
130D
330
1F
100
AcDbEntity
  8
0
100
AcDbLine
 10
40.42894376874845
 20
7.477789733919976
 30
0.0000000000000027
 11
40.66181477916042
 21
7.279990335445596
 31
0.0000000000000029
  0
LINE
  5
130E
330
1F
100
AcDbEntity
  8
0
100
AcDbLine
 10
41.22669457284573
 20
6.745869268674127
 30
0.0000000000000026
 11
41.50211082647234
 21
6.454830342542877
 31
0.0000000000000025
  0
LINE
  5
130F
330
1F
100
AcDbEntity
  8
0
100
AcDbLine
 10
41.50211082647234
 20
6.454830342542877
 30
0.0000000000000025
 11
41.79720573284446
 21
6.111752470660015
 31
0.0000000000000023
  0
LINE
  5
1310
330
1F
100
AcDbEntity
  8
0
100
AcDbLine
 10
41.79720573284446
 20
6.111752470660015
 30
0.0000000000000023
 11
42.0630048336
 21
5.77238949547206
 31
0.0000000000000019
  0
LINE
  5
1311
330
1F
100
AcDbEntity
  8
0
100
AcDbLine
 10
40.86387737188121
 20
7.098024242828444
 30
0.0000000000000028
 11
41.04518052228326
 21
6.926387882276351
 31
0.0000000000000025
  0
CIRCLE
  5
1312
330
1F
100
AcDbEntity
  8
0
100
AcDbCircle
 10
40.79893401037868
 20
6.72797448
 30
0.0000000000000079
 40
0.083
  0
LINE
  5
1313
330
1F
100
AcDbEntity
  8
0
100
AcDbLine
 10
41.04518052228326
 20
6.926387882276351
 30
0.0000000000000025
 11
41.22669457284573
 21
6.745869268674127
 31
0.0000000000000026
  0
LINE
  5
1314
330
1F
100
AcDbEntity
  8
0
100
AcDbLine
 10
40.66181477916042
 20
7.279990335445596
 30
0.0000000000000029
 11
40.86387737188121
 21
7.098024242828444
 31
0.0000000000000028
  0
LINE
  5
1315
330
1F
100
AcDbEntity
  8
0
100
AcDbLine
 10
39.949515231422
 20
7.849888185676149
 30
0.0000000000000029
 11
40.19042465403312
 21
7.668479459847318
 31
0.0000000000000026
  0
LINE
  5
1316
330
1F
100
AcDbEntity
  8
0
100
AcDbLine
 10
39.21596720952625
 20
8.341395226439011
 30
0.0000000000000029
 11
39.46193426728325
 21
8.186049390876391
 31
0.0000000000000031
  0
LINE
  5
1317
330
1F
100
AcDbEntity
  8
0
100
AcDbLine
 10
39.70656769466183
 20
8.02231260176547
 30
0.000000000000003
 11
39.949515231422
 21
7.849888185676149
 31
0.0000000000000029
  0
LINE
  5
1318
330
1F
100
AcDbEntity
  8
0
100
AcDbLine
 10
39.46193426728325
 20
8.186049390876391
 30
0.0000000000000031
 11
39.70656769466183
 21
8.02231260176547
 31
0.000000000000003
  0
LINE
  5
1319
330
1F
100
AcDbEntity
  8
0
100
AcDbLine
 10
37.91993843359842
 20
9.031316926128432
 30
0.0000000000000035
 11
38.41471907197211
 21
8.792303927152623
 31
0.0000000000000031
  0
LINE
  5
131A
330
1F
100
AcDbEntity
  8
0
100
AcDbLine
 10
38.41471907197211
 20
8.792303927152623
 30
0.0000000000000031
 11
38.89178726303787
 21
8.53469877102318
 31
0.000000000000003
  0
LINE
  5
131B
330
1F
100
AcDbEntity
  8
0
100
AcDbLine
 10
38.89178726303787
 20
8.53469877102318
 30
0.000000000000003
 11
39.21596720952625
 21
8.341395226439011
 31
0.0000000000000029
  0
CIRCLE
  5
131C
330
1F
100
AcDbEntity
  8
0
100
AcDbCircle
 10
38.65562997047351
 20
8.306462440000004
 30
0.0000000000000065
 40
0.083
  0
LINE
  5
131D
330
1F
100
AcDbEntity
  8
0
100
AcDbLine
 10
40.19042465403312
 20
7.668479459847318
 30
0.0000000000000026
 11
40.42894376874845
 21
7.477789733919976
 31
0.0000000000000027
  0
LINE
  5
131E
330
1F
100
AcDbEntity
  8
0
100
AcDbLine
 10
36.93307479032259
 20
9.43741018566812
 30
0.0000000000000037
 11
37.42869667997409
 21
9.244163994984937
 31
0.0000000000000031
  0
LINE
  5
131F
330
1F
100
AcDbEntity
  8
0
100
AcDbLine
 10
0.6814055294720202
 20
5.439069763285516
 30
0.0000000000000019
 11
0.9194924672515089
 21
5.772389495472054
 31
0.0000000000000018
  0
CIRCLE
  5
1320
330
1F
100
AcDbEntity
  8
0
100
AcDbCircle
 10
6.625177221895265
 20
0.3124999999999964
 30
0.0000000000000032
 40
0.083
  0
CIRCLE
  5
1321
330
1F
100
AcDbEntity
  8
0
100
AcDbCircle
 10
0.5477601804740179
 20
4.630444049999997
 30
0.0000000000000004
 40
0.083
  0
LINE
  5
1322
330
1F
100
AcDbEntity
  8
0
100
AcDbLine
 10
0.4694475631745904
 20
5.11412283549625
 30
0.0000000000000017
 11
0.6814055294720202
 21
5.439069763285516
 31
0.0000000000000019
  0
LINE
  5
1323
330
1F
100
AcDbEntity
  8
0
100
AcDbLine
 10
0.2820361115188808
 20
4.799880297317297
 30
0.0000000000000016
 11
0.4694475631745904
 21
5.11412283549625
 31
0.0000000000000017
  0
LINE
  5
1324
330
1F
100
AcDbEntity
  8
0
100
AcDbLine
 10
0.1029313454068013
 20
4.471828219875764
 30
0.0000000000000017
 11
0.2820361115188808
 21
4.799880297317297
 31
0.0000000000000016
  0
CIRCLE
  5
1325
330
1F
100
AcDbEntity
  8
0
100
AcDbCircle
 10
9.598391507609552
 20
0.3124999999999911
 30
0.0000000000000032
 40
0.083
  0
CIRCLE
  5
1326
330
1F
100
AcDbEntity
  8
0
100
AcDbCircle
 10
12.57160579332383
 20
0.3124999999999911
 30
0.0000000000000032
 40
0.083
  0
CIRCLE
  5
1327
330
1F
100
AcDbEntity
  8
0
100
AcDbCircle
 10
15.54482007903812
 20
0.3124999999999911
 30
0.0000000000000032
 40
0.083
  0
LINE
  5
1328
330
1F
100
AcDbEntity
  8
0
100
AcDbLine
 10
7.333542426987855
 20
9.854176573215525
 30
0.0000000000000033
 11
8.019288931541373
 21
10.03311912876095
 31
0.0000000000000034
  0
LINE
  5
1329
330
1F
100
AcDbEntity
  8
0
100
AcDbLine
 10
5.062558867253101
 20
9.031316926128411
 30
0.0000000000000034
 11
5.553800620877427
 21
9.24416399498493
 31
0.0000000000000035
  0
LINE
  5
132A
330
1F
100
AcDbEntity
  8
0
100
AcDbLine
 10
2.320682521691084
 20
7.279990335445578
 30
0.0000000000000026
 11
2.553553532103061
 21
7.477789733919966
 31
0.0000000000000026
  0
LINE
  5
132B
330
1F
100
AcDbEntity
  8
0
100
AcDbLine
 10
1.480386474379167
 20
6.454830342542869
 30
0.0000000000000022
 11
1.755802728005787
 21
6.74586926867412
 31
0.0000000000000023
  0
LINE
  5
132C
330
1F
100
AcDbEntity
  8
0
100
AcDbLine
 10
0.9194924672515089
 20
5.772389495472054
 30
0.0000000000000018
 11
1.185291568007045
 21
6.111752470660007
 31
0.000000000000002
  0
LINE
  5
132D
330
1F
100
AcDbEntity
  8
0
100
AcDbLine
 10
1.185291568007045
 20
6.111752470660007
 30
0.000000000000002
 11
1.480386474379167
 21
6.454830342542869
 31
0.0000000000000022
  0
LINE
  5
132E
330
1F
100
AcDbEntity
  8
0
100
AcDbLine
 10
1.937316778568246
 20
6.926387882276344
 30
0.0000000000000026
 11
2.118619928970294
 21
7.098024242828437
 31
0.0000000000000025
  0
CIRCLE
  5
132F
330
1F
100
AcDbEntity
  8
0
100
AcDbCircle
 10
2.183563290472737
 20
6.72797448
 30
0.000000000000011
 40
0.083
  0
LINE
  5
1330
330
1F
100
AcDbEntity
  8
0
100
AcDbLine
 10
1.755802728005787
 20
6.74586926867412
 30
0.0000000000000023
 11
1.937316778568246
 21
6.926387882276344
 31
0.0000000000000026
  0
LINE
  5
1331
330
1F
100
AcDbEntity
  8
0
100
AcDbLine
 10
2.118619928970294
 20
7.098024242828437
 30
0.0000000000000025
 11
2.320682521691084
 21
7.279990335445578
 31
0.0000000000000026
  0
LINE
  5
1332
330
1F
100
AcDbEntity
  8
0
100
AcDbLine
 10
4.090710037813642
 20
8.534698771023155
 30
0.0000000000000031
 11
4.567778228879393
 21
8.792303927152609
 31
0.0000000000000033
  0
LINE
  5
1333
330
1F
100
AcDbEntity
  8
0
100
AcDbLine
 10
3.520563033568253
 20
8.18604939087638
 30
0.000000000000003
 11
3.766530091325253
 21
8.341395226438994
 31
0.0000000000000031
  0
LINE
  5
1334
330
1F
100
AcDbEntity
  8
0
100
AcDbLine
 10
2.792072646818388
 20
7.668479459847304
 30
0.0000000000000027
 11
3.032982069429516
 21
7.849888185676132
 31
0.0000000000000028
  0
LINE
  5
1335
330
1F
100
AcDbEntity
  8
0
100
AcDbLine
 10
2.553553532103061
 20
7.477789733919966
 30
0.0000000000000026
 11
2.792072646818388
 21
7.668479459847304
 31
0.0000000000000027
  0
LINE
  5
1336
330
1F
100
AcDbEntity
  8
0
100
AcDbLine
 10
3.032982069429516
 20
7.849888185676132
 30
0.0000000000000028
 11
3.275929606189686
 21
8.022312601765449
 31
0.0000000000000029
  0
LINE
  5
1337
330
1F
100
AcDbEntity
  8
0
100
AcDbLine
 10
3.275929606189686
 20
8.022312601765449
 30
0.0000000000000029
 11
3.520563033568253
 21
8.18604939087638
 31
0.000000000000003
  0
LINE
  5
1338
330
1F
100
AcDbEntity
  8
0
100
AcDbLine
 10
3.766530091325253
 20
8.341395226438994
 30
0.0000000000000031
 11
4.090710037813642
 21
8.534698771023155
 31
0.0000000000000031
  0
CIRCLE
  5
1339
330
1F
100
AcDbEntity
  8
0
100
AcDbCircle
 10
4.326867330377881
 20
8.30646244
 30
0.0000000000000093
 40
0.083
  0
LINE
  5
133A
330
1F
100
AcDbEntity
  8
0
100
AcDbLine
 10
4.567778228879393
 20
8.792303927152609
 30
0.0000000000000033
 11
5.062558867253101
 21
9.031316926128411
 31
0.0000000000000034
  0
LINE
  5
133B
330
1F
100
AcDbEntity
  8
0
100
AcDbLine
 10
5.553800620877427
 20
9.24416399498493
 30
0.0000000000000035
 11
6.049422510528919
 21
9.43741018566811
 31
0.0000000000000031
  0
LINE
  5
133C
330
1F
100
AcDbEntity
  8
0
100
AcDbLine
 10
6.049422510528919
 20
9.43741018566811
 30
0.0000000000000031
 11
6.65827001682966
 21
9.64982448215974
 31
0.0000000000000037
  0
CIRCLE
  5
133D
330
1F
100
AcDbEntity
  8
0
100
AcDbCircle
 10
6.776325980410898
 20
9.356134159999999
 30
-0.0000000000000009
 40
0.083
  0
LINE
  5
133E
330
1F
100
AcDbEntity
  8
0
100
AcDbLine
 10
6.65827001682966
 20
9.64982448215974
 30
0.0000000000000037
 11
7.333542426987855
 21
9.854176573215525
 31
0.0000000000000033
  0
LINE
  5
133F
330
1F
100
AcDbEntity
  8
0
100
AcDbLine
 10
-0.7108094102906385
 20
2.103634932291136
 30
0.0000000000000008
 11
-0.6272390412937572
 21
2.511177039795288
 31
0.000000000000001
  0
LINE
  5
1340
330
1F
100
AcDbEntity
  8
0
100
AcDbLine
 10
0.0
 20
0.0
 30
0.0
 11
0.0683623598015092
 21
1.405760163557278
 31
0.0000000000000007
  0
ARC
  5
1341
330
1F
100
AcDbEntity
  8
0
100
AcDbCircle
 10
0.0059361319085066
 20
1.408795961812852
 30
-0.000000000001494
 40
0.0625
210
-0.0000000000000541
220
-0.0000000000010604
230
1.0
100
AcDbArc
 50
357.2158896621584
 51
87.35307697036073
  0
LINE
  5
1342
330
1F
100
AcDbEntity
  8
0
100
AcDbLine
 10
-0.77193013043066
 20
1.692184671278383
 30
0.0000000000000004
 11
-0.7108094102906385
 21
2.103634932291136
 31
0.0000000000000008
  0
LINE
  5
1343
330
1F
100
AcDbEntity
  8
0
100
AcDbLine
 10
0.0088224501037583
 20
1.471229279578896
 30
0.0000000000000007
 11
-0.7887038002796086
 21
1.508099249172691
 31
0.0000000000000005
  0
LINE
  5
1344
330
1F
100
AcDbEntity
  8
0
100
AcDbLine
 10
-0.7887038002796086
 20
1.508099249172691
 30
0.0000000000000005
 11
-0.77193013043066
 21
1.692184671278383
 31
0.0000000000000004
  0
CIRCLE
  5
1345
330
1F
100
AcDbEntity
  8
0
100
AcDbCircle
 10
-0.3826727296084
 20
2.141561349999999
 30
0.0000000000000048
 40
0.083
  0
CIRCLE
  5
1346
330
1F
100
AcDbEntity
  8
0
100
AcDbCircle
 10
0.6787486504666946
 20
0.3125
 30
0.0000000000000032
 40
0.083
  0
CIRCLE
  5
1347
330
1F
100
AcDbEntity
  8
0
100
AcDbCircle
 10
3.651962936180979
 20
0.3124999999999964
 30
0.0000000000000032
 40
0.083
  0
LINE
  5
1348
330
1F
100
AcDbEntity
  8
0
100
AcDbLine
 10
-0.2474141478404457
 20
3.709901570386335
 30
0.0000000000000013
 11
-0.0803346676599197
 21
4.09743200548878
 31
0.0000000000000015
  0
LINE
  5
1349
330
1F
100
AcDbEntity
  8
0
100
AcDbLine
 10
-0.5220550187823834
 20
2.914153918180502
 30
0.0000000000000009
 11
-0.3950662960296091
 21
3.314801554592179
 31
0.0000000000000011
  0
LINE
  5
134A
330
1F
100
AcDbEntity
  8
0
100
AcDbLine
 10
-0.6272390412937572
 20
2.511177039795288
 30
0.000000000000001
 11
-0.5220550187823834
 21
2.914153918180502
 31
0.0000000000000009
  0
LINE
  5
134B
330
1F
100
AcDbEntity
  8
0
100
AcDbLine
 10
-0.3950662960296091
 20
3.314801554592179
 30
0.0000000000000011
 11
-0.2474141478404457
 21
3.709901570386335
 31
0.0000000000000013
  0
LINE
  5
134C
330
1F
100
AcDbEntity
  8
0
100
AcDbLine
 10
-0.0803346676599197
 20
4.09743200548878
 30
0.0000000000000015
 11
0.1029313454068013
 21
4.471828219875764
 31
0.0000000000000017
  0
VIEWPORT
  5
18B
330
182
100
AcDbEntity
 67
     1
  8
0
100
AcDbViewport
 10
5.302083773875799
 20
3.968749891115924
 30
0.0
 40
11.63799974576694
 41
9.430402517727497
 68
     1
 69
     1
 12
5.302083773875799
 22
3.968749891115924
 13
0.0
 23
0.0
 14
0.5
 24
0.5
 15
0.5
 25
0.5
 16
0.0
 26
0.0
 36
1.0
 17
0.0
 27
0.0
 37
0.0
 42
50.0
 43
0.0
 44
0.0
 45
9.430402517727497
 50
0.0
 51
0.0
 72
   100
 90
    32800
  1

281
     0
 71
     1
 74
     0
110
0.0
120
0.0
130
0.0
111
1.0
121
0.0
131
0.0
112
0.0
122
1.0
132
0.0
 79
     0
146
0.0
  0
ENDSEC
  0
SECTION
  2
OBJECTS
  0
DICTIONARY
  5
C
330
0
100
AcDbDictionary
281
     1
  3
ACAD_GROUP
350
D
  3
ACAD_LAYOUT
350
1A
  3
ACAD_MLINESTYLE
350
17
  3
ACAD_PLOTSETTINGS
350
19
  3
ACAD_PLOTSTYLENAME
350
E
  3
AcDbVariableDictionary
350
157
  3
AcmDictionary
350
E3
  3
AMG
350
2B
  3
AMGSNAPSETTINGS
350
13B
  3
DWGPROPS
350
136D
  3
MAPISURF_MODULE
350
BB
  0
DICTIONARY
  5
120
330
2
100
AcDbDictionary
280
     1
281
     1
  3
ACAD_LAYERFILTERS
360
121
  3
ACAD_LAYERSTATES
360
126
  0
DICTIONARY
  5
153
330
1F
100
AcDbDictionary
280
     1
281
     1
  3
ACAD_INDEX
360
154
  0
DICTIONARY
  5
D
102
{ACAD_REACTORS
330
C
102
}
330
C
100
AcDbDictionary
281
     1
  0
DICTIONARY
  5
1A
102
{ACAD_REACTORS
330
C
102
}
330
C
100
AcDbDictionary
281
     1
  3
Layout1
350
183
  3
Model
350
22
  0
DICTIONARY
  5
17
102
{ACAD_REACTORS
330
C
102
}
330
C
100
AcDbDictionary
281
     1
  3
Standard
350
18
  0
DICTIONARY
  5
19
102
{ACAD_REACTORS
330
C
102
}
330
C
100
AcDbDictionary
281
     1
  0
ACDBDICTIONARYWDFLT
  5
E
102
{ACAD_REACTORS
330
C
102
}
330
C
100
AcDbDictionary
281
     1
  3
Normal
350
F
100
AcDbDictionaryWithDefault
340
F
  0
DICTIONARY
  5
157
102
{ACAD_REACTORS
330
C
102
}
330
C
100
AcDbDictionary
281
     1
  3
DIMASSOC
350
15A
  3
HIDETEXT
350
159
  3
INDEXCTL
350
158
  0
DICTIONARY
  5
E3
102
{ACAD_REACTORS
330
C
102
}
330
C
100
AcDbDictionary
281
     1
  3
AcmBOMDATA
350
E4
  3
AcmStdDictionary
350
F2
  0
DICTIONARY
  5
2B
102
{ACAD_REACTORS
330
C
102
}
330
C
100
AcDbDictionary
281
     1
  3
AcMgSettings
350
2C
  3
AMGLAYCFG
350
F4
  0
DICTIONARY
  5
13B
102
{ACAD_REACTORS
330
C
102
}
330
C
100
AcDbDictionary
281
     1
  3
DIMENSION
350
140
  3
FEA
350
13F
  3
HATCH (1)
350
13C
  3
HATCH (2)
350
13D
  3
SIMPLE WELD
350
141
  3
SYMBOLS
350
13E
  0
XRECORD
  5
136D
102
{ACAD_REACTORS
330
C
102
}
330
C
100
AcDbXrecord
280
     1
  1
DWGPROPS COOKIE
  2

  3

  4

  6

  7

  8

  9

300
AmdtFileType=83
301
=
302
=
303
=
304
=
305
=
306
=
307
=
308
=
309
=
 40
0.0513521064814815
 41
2452331.344913958
 42
2452522.524098588
  1

 90
        1
  0
DICTIONARY
  5
121
102
{ACAD_REACTORS
330
120
102
}
330
120
100
AcDbDictionary
280
     1
281
     1
  3
working
360
122
  0
DICTIONARY
  5
126
102
{ACAD_REACTORS
330
120
102
}
330
120
100
AcDbDictionary
281
     1
  0
DICTIONARY
  5
154
102
{ACAD_REACTORS
330
153
102
}
330
153
100
AcDbDictionary
281
     1
  3
*A1
350
155
  0
LAYOUT
  5
183
102
{ACAD_REACTORS
330
1A
102
}
330
1A
100
AcDbPlotSettings
  1

  2
HP LaserJet 4 Plus
  4
Letter
  6

 40
7.143749713897705
 41
6.720414161682128
 42
7.14373779296875
 43
5.027069091796875
 44
215.8999938964843
 45
279.3999938964843
 46
0.0
 47
0.0
 48
0.0
 49
0.0
140
0.0
141
0.0
142
1.0
143
1.0
 70
   688
 72
     0
 73
     1
 74
     5
  7

 75
    16
147
1.0
148
0.0
149
0.0
100
AcDbLayout
  1
Layout1
 70
     1
 71
     1
 10
-0.1979161059762549
 20
-0.2812499887361301
 11
10.80208365372785
 21
8.218749770967978
 12
0.0
 22
0.0
 32
0.0
 14
1.000000000000000E+20
 24
1.000000000000000E+20
 34
1.000000000000000E+20
 15
-1.000000000000000E+20
 25
-1.000000000000000E+20
 35
-1.000000000000000E+20
146
0.0
 13
0.0
 23
0.0
 33
0.0
 16
1.0
 26
0.0
 36
0.0
 17
0.0
 27
1.0
 37
0.0
 76
     0
330
182
331
18B
  0
LAYOUT
  5
22
102
{ACAD_REACTORS
330
1A
102
}
330
1A
100
AcDbPlotSettings
  1

  2
\\PRE5A682\HP4P
  4

  6

 40
0.0
 41
0.0
 42
0.0
 43
0.0
 44
0.0
 45
0.0
 46
0.0
 47
0.0
 48
0.0
 49
0.0
140
0.0
141
0.0
142
1.0
143
1.0
 70
  1712
 72
     0
 73
     0
 74
     0
  7

 75
     0
147
1.0
148
0.0
149
0.0
100
AcDbLayout
  1
Model
 70
     1
 71
     0
 10
0.0
 20
0.0
 11
12.0
 21
9.0
 12
0.0
 22
0.0
 32
0.0
 14
0.0
 24
0.0
 34
0.0
 15
0.0
 25
0.0
 35
0.0
146
0.0
 13
0.0
 23
0.0
 33
0.0
 16
1.0
 26
0.0
 36
0.0
 17
0.0
 27
1.0
 37
0.0
 76
     0
330
1F
  0
MLINESTYLE
  5
18
102
{ACAD_REACTORS
330
17
102
}
330
17
100
AcDbMlineStyle
  2
STANDARD
 70
     0
  3

 62
   256
 51
90.0
 52
90.0
 71
     2
 49
0.5
 62
   256
  6
BYLAYER
 49
-0.5
 62
   256
  6
BYLAYER
  0
ACDBPLACEHOLDER
  5
F
102
{ACAD_REACTORS
330
E
102
}
330
E
  0
DICTIONARYVAR
  5
15A
102
{ACAD_REACTORS
330
157
102
}
330
157
100
DictionaryVariables
280
     0
  1
2
  0
DICTIONARYVAR
  5
159
102
{ACAD_REACTORS
330
157
102
}
330
157
100
DictionaryVariables
280
     0
  1
1
  0
DICTIONARYVAR
  5
158
102
{ACAD_REACTORS
330
157
102
}
330
157
100
DictionaryVariables
280
     0
  1
1
  0
ACMDATADICTIONARY
  5
E4
102
{ACAD_REACTORS
330
E3
102
}
330
E3
100
AcDbDictionary
281
     1
  3
*A1
350
E5
100
AcmDataDictionary
  0
DICTIONARY
  5
F2
102
{ACAD_REACTORS
330
E3
102
}
330
E3
100
AcDbDictionary
281
     1
  3
ANSI
350
F3
  0
DICTIONARY
  5
2C
102
{ACAD_REACTORS
330
2B
102
}
330
2B
100
AcDbDictionary
281
     1
  3
DWGSETTINGS
350
2D
  3
TRANSSETTINGS
350
31
  0
ACAMGFILTERDAT
  5
140
102
{ACAD_REACTORS
330
13B
102
}
330
13B
100
AcAmgFilterDat
 70
    15
  1
DIMENSION,AMDT_*_DIM
  2
*
  3
*
  4
*
  5
*
290
     1
  0
ACAMGFILTERDAT
  5
13F
102
{ACAD_REACTORS
330
13B
102
}
330
13B
100
AcAmgFilterDat
 70
    15
  1
*
  2
AM_FEA-AM_*
  3
*
  4
*
  5
*
290
     1
  0
ACAMGFILTERDAT
  5
13C
102
{ACAD_REACTORS
330
13B
102
}
330
13B
100
AcAmgFilterDat
 70
    15
  1
HATCH
  2
*
  3
*
  4
*
  5
*
290
     1
  0
ACAMGFILTERDAT
  5
13D
102
{ACAD_REACTORS
330
13B
102
}
330
13B
100
AcAmgFilterDat
 70
    15
  1
LINE
  2
8,8N,*-8,*-8N,AM_8,AM_8N,*-AM_8,*-AM_8N
  3
*
  4
*
  5
INSERT,STDPART2D
290
     1
  0
ACAMGFILTERDAT
  5
141
102
{ACAD_REACTORS
330
13B
102
}
330
13B
100
AcAmgFilterDat
 70
    15
  1
ARC
  2
AM_5
  3
*
  4
2
  5
INSERT
290
     0
  0
ACAMGFILTERDAT
  5
13E
102
{ACAD_REACTORS
330
13B
102
}
330
13B
100
AcAmgFilterDat
 70
    15
  1
ACMFCFRAME,ACMDATUMTARGET,ACMDATUMID,ACMWELDSYM,ACMSURFSYM,ACMFEATID,ACMPARTREF,ACMBALLOON,AMDTEDGESYM,AMGSCREWCALCTABLE
  2
*
  3
*
  4
*
  5
*
290
     1
  0
XRECORD
  5
122
102
{ACAD_REACTORS
330
121
102
}
330
121
100
AcDbXrecord
280
     1
  1
working
  1
amviews
  1
*
  1
*
 70
     0
  1
*
  1
*
  0
LAYER_INDEX
  5
155
102
{ACAD_REACTORS
330
154
102
}
330
154
100
AcDbIndex
 40
2452522.52426434
100
AcDbLayerIndex
  8
0
360
156
 90
      134
  0
ACMDATAENTRYBLOCK
  5
E5
102
{ACAD_REACTORS
330
E4
102
}
330
E4
100
AcmDataEntry
100
AcmDataEntryBlock
  0
IDBUFFER
  5
156
330
0
100
AcDbIdBuffer
330
130A
330
130B
330
130C
330
130D
330
130E
330
130F
330
1310
330
1311
330
1312
330
1313
330
1314
330
1315
330
1316
330
1317
330
1318
330
1319
330
131A
330
131B
330
131C
330
131D
330
131E
330
131F
330
1320
330
1321
330
1322
330
1323
330
1324
330
1325
330
1326
330
1327
330
1328
330
1329
330
132A
330
132B
330
132C
330
132D
330
132E
330
132F
330
1330
330
1331
330
1332
330
1333
330
1334
330
1335
330
1336
330
1337
330
1338
330
1339
330
133A
330
133B
330
133C
330
133D
330
133E
330
133F
330
1340
330
1341
330
1342
330
1343
330
1344
330
1345
330
1346
330
1347
330
1348
330
1349
330
134A
330
134B
330
134C
330
14B
330
14C
330
12C9
330
12CA
330
12CB
330
12CC
330
12CD
330
12CE
330
12CF
330
12D0
330
12D1
330
12D2
330
12D3
330
12D4
330
12D5
330
12D6
330
12D7
330
12D8
330
12D9
330
12DA
330
12DB
330
12DC
330
12DD
330
12DE
330
12DF
330
12E0
330
12E1
330
12E2
330
12E3
330
12E4
330
12E5
330
12E6
330
12E7
330
12E8
330
12E9
330
12EA
330
12EB
330
12EC
330
12ED
330
12EE
330
12EF
330
12F0
330
12F1
330
12F2
330
12F3
330
12F4
330
12F5
330
12F6
330
12F7
330
12F8
330
12F9
330
12FA
330
12FB
330
12FC
330
12FD
330
12FE
330
12FF
330
1300
330
1301
330
1302
330
1303
330
1304
330
1305
330
1306
330
1307
330
1308
330
1309
  0
ENDSEC
  0
EOF
